 0
SECTION
 2
HEADER
 9
$ACADVER
 1
AC1009
 0
ENDSEC
 0
SECTION
 2
TABLES
 0
TABLE
 2
LTYPE
 70
1
 0
LTYPE
 2
CONTINUOUS
 70
64
 3
solid line
 72
65
 73
0
 40
0.0
 0
ENDTAB
 0
TABLE
 2
LAYER
 70
6
 0
LAYER
 2
0
 70
0
 62
7
 6
CONTINUOUS
 0
LAYER
 2
BACKGROUND
 70
64
 62
254
 6
CONTINUOUS
 0
LAYER
 2
CUBOID4
 70
64
 62
31
 6
CONTINUOUS
 0
LAYER
 2
CUBOID3
 70
64
 62
31
 6
CONTINUOUS
 0
LAYER
 2
CUBOID2
 70
64
 62
250
 6
CONTINUOUS
 0
LAYER
 2
CUBOID1
 70
64
 62
250
 6
CONTINUOUS
 0
LAYER
 2
CUBOID
 70
64
 62
250
 6
CONTINUOUS
 0
LAYER
 2
MAN
 70
64
 62
7
 6
CONTINUOUS
 0
LAYER
 2
CUBOID.1
 70
64
 62
31
 6
CONTINUOUS
 0
LAYER
 2
CUBOID1.1
 70
64
 62
32
 6
CONTINUOUS
 0
LAYER
 2
CUBOID2.1
 70
64
 62
32
 6
CONTINUOUS
 0
LAYER
 2
CUBOID3.1
 70
64
 62
32
 6
CONTINUOUS
 0
LAYER
 2
CUBOID4.1
 70
64
 62
171
 6
CONTINUOUS
 0
LAYER
 2
CUBOID5
 70
64
 62
171
 6
CONTINUOUS
 0
ENDTAB
 0
ENDSEC
 0
SECTION
 2
BLOCKS
 0
ENDSEC
 0
SECTION
 2
ENTITIES
 0
POLYLINE
 8
CUBOID4
 66
1
 10
0.0
 20
0.0
 30
0.0
 70
64
 71
26
 72
24
 0
VERTEX
 8
CUBOID4
 10
-14.3
 20
-32.5
 30
2.0933
 70
192
 0
VERTEX
 8
CUBOID4
 10
-10.7
 20
-32.5
 30
2.0933
 70
192
 0
VERTEX
 8
CUBOID4
 10
-10.9
 20
-27.5
 30
2.0933
 70
192
 0
VERTEX
 8
CUBOID4
 10
-14.1
 20
-27.5
 30
2.0933
 70
192
 0
VERTEX
 8
CUBOID4
 10
-14.3
 20
-32.5
 30
3.9067
 70
192
 0
VERTEX
 8
CUBOID4
 10
-10.7
 20
-32.5
 30
3.9067
 70
192
 0
VERTEX
 8
CUBOID4
 10
-10.9
 20
-27.5
 30
3.9067
 70
192
 0
VERTEX
 8
CUBOID4
 10
-14.1
 20
-27.5
 30
3.9067
 70
192
 0
VERTEX
 8
CUBOID4
 10
-12.5
 20
-32.5
 30
2.0933
 70
192
 0
VERTEX
 8
CUBOID4
 10
-10.5
 20
-30
 30
2.0933
 70
192
 0
VERTEX
 8
CUBOID4
 10
-12.5
 20
-27.5
 30
2.0933
 70
192
 0
VERTEX
 8
CUBOID4
 10
-14.5
 20
-30
 30
2.0933
 70
192
 0
VERTEX
 8
CUBOID4
 10
-12.5
 20
-32.5
 30
3.9067
 70
192
 0
VERTEX
 8
CUBOID4
 10
-10.5
 20
-30
 30
3.9067
 70
192
 0
VERTEX
 8
CUBOID4
 10
-12.5
 20
-27.5
 30
3.9067
 70
192
 0
VERTEX
 8
CUBOID4
 10
-14.5
 20
-30
 30
3.9067
 70
192
 0
VERTEX
 8
CUBOID4
 10
-14.3
 20
-32.5
 30
3
 70
192
 0
VERTEX
 8
CUBOID4
 10
-10.7
 20
-32.5
 30
3
 70
192
 0
VERTEX
 8
CUBOID4
 10
-10.9
 20
-27.5
 30
3
 70
192
 0
VERTEX
 8
CUBOID4
 10
-14.1
 20
-27.5
 30
3
 70
192
 0
VERTEX
 8
CUBOID4
 10
-12.5
 20
-30
 30
2.78
 70
192
 0
VERTEX
 8
CUBOID4
 10
-12.5
 20
-30
 30
4.5933
 70
192
 0
VERTEX
 8
CUBOID4
 10
-12.5
 20
-32.5
 30
3
 70
192
 0
VERTEX
 8
CUBOID4
 10
-12.5
 20
-27.5
 30
3
 70
192
 0
VERTEX
 8
CUBOID4
 10
-10.5
 20
-30
 30
3
 70
192
 0
VERTEX
 8
CUBOID4
 10
-14.5
 20
-30
 30
3
 70
192
 0
VERTEX
 8
CUBOID4
 10
0
 20
0
 30
0
 70
128
 71
1
 72
9
 73
21
 74
12
 0
VERTEX
 8
CUBOID4
 10
0
 20
0
 30
0
 70
128
 71
2
 72
10
 73
21
 74
9
 0
VERTEX
 8
CUBOID4
 10
0
 20
0
 30
0
 70
128
 71
3
 72
11
 73
21
 74
10
 0
VERTEX
 8
CUBOID4
 10
0
 20
0
 30
0
 70
128
 71
4
 72
12
 73
21
 74
11
 0
VERTEX
 8
CUBOID4
 10
0
 20
0
 30
0
 70
128
 71
5
 72
16
 73
22
 74
13
 0
VERTEX
 8
CUBOID4
 10
0
 20
0
 30
0
 70
128
 71
8
 72
15
 73
22
 74
16
 0
VERTEX
 8
CUBOID4
 10
0
 20
0
 30
0
 70
128
 71
7
 72
14
 73
22
 74
15
 0
VERTEX
 8
CUBOID4
 10
0
 20
0
 30
0
 70
128
 71
6
 72
13
 73
22
 74
14
 0
VERTEX
 8
CUBOID4
 10
0
 20
0
 30
0
 70
128
 71
1
 72
17
 73
23
 74
9
 0
VERTEX
 8
CUBOID4
 10
0
 20
0
 30
0
 70
128
 71
5
 72
13
 73
23
 74
17
 0
VERTEX
 8
CUBOID4
 10
0
 20
0
 30
0
 70
128
 71
6
 72
18
 73
23
 74
13
 0
VERTEX
 8
CUBOID4
 10
0
 20
0
 30
0
 70
128
 71
2
 72
9
 73
23
 74
18
 0
VERTEX
 8
CUBOID4
 10
0
 20
0
 30
0
 70
128
 71
3
 72
19
 73
24
 74
11
 0
VERTEX
 8
CUBOID4
 10
0
 20
0
 30
0
 70
128
 71
7
 72
15
 73
24
 74
19
 0
VERTEX
 8
CUBOID4
 10
0
 20
0
 30
0
 70
128
 71
8
 72
20
 73
24
 74
15
 0
VERTEX
 8
CUBOID4
 10
0
 20
0
 30
0
 70
128
 71
4
 72
11
 73
24
 74
20
 0
VERTEX
 8
CUBOID4
 10
0
 20
0
 30
0
 70
128
 71
2
 72
18
 73
25
 74
10
 0
VERTEX
 8
CUBOID4
 10
0
 20
0
 30
0
 70
128
 71
6
 72
14
 73
25
 74
18
 0
VERTEX
 8
CUBOID4
 10
0
 20
0
 30
0
 70
128
 71
7
 72
19
 73
25
 74
14
 0
VERTEX
 8
CUBOID4
 10
0
 20
0
 30
0
 70
128
 71
3
 72
10
 73
25
 74
19
 0
VERTEX
 8
CUBOID4
 10
0
 20
0
 30
0
 70
128
 71
1
 72
12
 73
26
 74
17
 0
VERTEX
 8
CUBOID4
 10
0
 20
0
 30
0
 70
128
 71
4
 72
20
 73
26
 74
12
 0
VERTEX
 8
CUBOID4
 10
0
 20
0
 30
0
 70
128
 71
8
 72
16
 73
26
 74
20
 0
VERTEX
 8
CUBOID4
 10
0
 20
0
 30
0
 70
128
 71
5
 72
17
 73
26
 74
16
 0
SEQEND
 0
POLYLINE
 8
CUBOID3
 66
1
 10
0.0
 20
0.0
 30
0.0
 70
64
 71
26
 72
24
 0
VERTEX
 8
CUBOID3
 10
10.7
 20
-32.5
 30
2.0933
 70
192
 0
VERTEX
 8
CUBOID3
 10
14.3
 20
-32.5
 30
2.0933
 70
192
 0
VERTEX
 8
CUBOID3
 10
14.1
 20
-27.5
 30
2.0933
 70
192
 0
VERTEX
 8
CUBOID3
 10
10.9
 20
-27.5
 30
2.0933
 70
192
 0
VERTEX
 8
CUBOID3
 10
10.7
 20
-32.5
 30
3.9067
 70
192
 0
VERTEX
 8
CUBOID3
 10
14.3
 20
-32.5
 30
3.9067
 70
192
 0
VERTEX
 8
CUBOID3
 10
14.1
 20
-27.5
 30
3.9067
 70
192
 0
VERTEX
 8
CUBOID3
 10
10.9
 20
-27.5
 30
3.9067
 70
192
 0
VERTEX
 8
CUBOID3
 10
12.5
 20
-32.5
 30
2.0933
 70
192
 0
VERTEX
 8
CUBOID3
 10
14.5
 20
-30
 30
2.0933
 70
192
 0
VERTEX
 8
CUBOID3
 10
12.5
 20
-27.5
 30
2.0933
 70
192
 0
VERTEX
 8
CUBOID3
 10
10.5
 20
-30
 30
2.0933
 70
192
 0
VERTEX
 8
CUBOID3
 10
12.5
 20
-32.5
 30
3.9067
 70
192
 0
VERTEX
 8
CUBOID3
 10
14.5
 20
-30
 30
3.9067
 70
192
 0
VERTEX
 8
CUBOID3
 10
12.5
 20
-27.5
 30
3.9067
 70
192
 0
VERTEX
 8
CUBOID3
 10
10.5
 20
-30
 30
3.9067
 70
192
 0
VERTEX
 8
CUBOID3
 10
10.7
 20
-32.5
 30
3
 70
192
 0
VERTEX
 8
CUBOID3
 10
14.3
 20
-32.5
 30
3
 70
192
 0
VERTEX
 8
CUBOID3
 10
14.1
 20
-27.5
 30
3
 70
192
 0
VERTEX
 8
CUBOID3
 10
10.9
 20
-27.5
 30
3
 70
192
 0
VERTEX
 8
CUBOID3
 10
12.5
 20
-30
 30
2.78
 70
192
 0
VERTEX
 8
CUBOID3
 10
12.5
 20
-30
 30
4.5933
 70
192
 0
VERTEX
 8
CUBOID3
 10
12.5
 20
-32.5
 30
3
 70
192
 0
VERTEX
 8
CUBOID3
 10
12.5
 20
-27.5
 30
3
 70
192
 0
VERTEX
 8
CUBOID3
 10
14.5
 20
-30
 30
3
 70
192
 0
VERTEX
 8
CUBOID3
 10
10.5
 20
-30
 30
3
 70
192
 0
VERTEX
 8
CUBOID3
 10
0
 20
0
 30
0
 70
128
 71
1
 72
9
 73
21
 74
12
 0
VERTEX
 8
CUBOID3
 10
0
 20
0
 30
0
 70
128
 71
2
 72
10
 73
21
 74
9
 0
VERTEX
 8
CUBOID3
 10
0
 20
0
 30
0
 70
128
 71
3
 72
11
 73
21
 74
10
 0
VERTEX
 8
CUBOID3
 10
0
 20
0
 30
0
 70
128
 71
4
 72
12
 73
21
 74
11
 0
VERTEX
 8
CUBOID3
 10
0
 20
0
 30
0
 70
128
 71
5
 72
16
 73
22
 74
13
 0
VERTEX
 8
CUBOID3
 10
0
 20
0
 30
0
 70
128
 71
8
 72
15
 73
22
 74
16
 0
VERTEX
 8
CUBOID3
 10
0
 20
0
 30
0
 70
128
 71
7
 72
14
 73
22
 74
15
 0
VERTEX
 8
CUBOID3
 10
0
 20
0
 30
0
 70
128
 71
6
 72
13
 73
22
 74
14
 0
VERTEX
 8
CUBOID3
 10
0
 20
0
 30
0
 70
128
 71
1
 72
17
 73
23
 74
9
 0
VERTEX
 8
CUBOID3
 10
0
 20
0
 30
0
 70
128
 71
5
 72
13
 73
23
 74
17
 0
VERTEX
 8
CUBOID3
 10
0
 20
0
 30
0
 70
128
 71
6
 72
18
 73
23
 74
13
 0
VERTEX
 8
CUBOID3
 10
0
 20
0
 30
0
 70
128
 71
2
 72
9
 73
23
 74
18
 0
VERTEX
 8
CUBOID3
 10
0
 20
0
 30
0
 70
128
 71
3
 72
19
 73
24
 74
11
 0
VERTEX
 8
CUBOID3
 10
0
 20
0
 30
0
 70
128
 71
7
 72
15
 73
24
 74
19
 0
VERTEX
 8
CUBOID3
 10
0
 20
0
 30
0
 70
128
 71
8
 72
20
 73
24
 74
15
 0
VERTEX
 8
CUBOID3
 10
0
 20
0
 30
0
 70
128
 71
4
 72
11
 73
24
 74
20
 0
VERTEX
 8
CUBOID3
 10
0
 20
0
 30
0
 70
128
 71
2
 72
18
 73
25
 74
10
 0
VERTEX
 8
CUBOID3
 10
0
 20
0
 30
0
 70
128
 71
6
 72
14
 73
25
 74
18
 0
VERTEX
 8
CUBOID3
 10
0
 20
0
 30
0
 70
128
 71
7
 72
19
 73
25
 74
14
 0
VERTEX
 8
CUBOID3
 10
0
 20
0
 30
0
 70
128
 71
3
 72
10
 73
25
 74
19
 0
VERTEX
 8
CUBOID3
 10
0
 20
0
 30
0
 70
128
 71
1
 72
12
 73
26
 74
17
 0
VERTEX
 8
CUBOID3
 10
0
 20
0
 30
0
 70
128
 71
4
 72
20
 73
26
 74
12
 0
VERTEX
 8
CUBOID3
 10
0
 20
0
 30
0
 70
128
 71
8
 72
16
 73
26
 74
20
 0
VERTEX
 8
CUBOID3
 10
0
 20
0
 30
0
 70
128
 71
5
 72
17
 73
26
 74
16
 0
SEQEND
 0
POLYLINE
 8
CUBOID2
 66
1
 10
0.0
 20
0.0
 30
0.0
 70
64
 71
26
 72
24
 0
VERTEX
 8
CUBOID2
 10
-3.75
 20
-10
 30
7.5682
 70
192
 0
VERTEX
 8
CUBOID2
 10
3.75
 20
-10
 30
7.5682
 70
192
 0
VERTEX
 8
CUBOID2
 10
3.75
 20
5
 30
7.5682
 70
192
 0
VERTEX
 8
CUBOID2
 10
-3.75
 20
5
 30
7.5682
 70
192
 0
VERTEX
 8
CUBOID2
 10
-3.75
 20
-10
 30
10.4318
 70
192
 0
VERTEX
 8
CUBOID2
 10
3.75
 20
-10
 30
10.4318
 70
192
 0
VERTEX
 8
CUBOID2
 10
3.75
 20
5
 30
10.4318
 70
192
 0
VERTEX
 8
CUBOID2
 10
-3.75
 20
5
 30
10.4318
 70
192
 0
VERTEX
 8
CUBOID2
 10
0
 20
-10
 30
7.5682
 70
192
 0
VERTEX
 8
CUBOID2
 10
5
 20
-2.5
 30
6.5455
 70
192
 0
VERTEX
 8
CUBOID2
 10
0
 20
5
 30
7.5682
 70
192
 0
VERTEX
 8
CUBOID2
 10
-5
 20
-2.5
 30
6.5455
 70
192
 0
VERTEX
 8
CUBOID2
 10
0
 20
-10
 30
10.4318
 70
192
 0
VERTEX
 8
CUBOID2
 10
5
 20
-2.5
 30
11.0455
 70
192
 0
VERTEX
 8
CUBOID2
 10
0
 20
5
 30
10.4318
 70
192
 0
VERTEX
 8
CUBOID2
 10
-5
 20
-2.5
 30
11.0455
 70
192
 0
VERTEX
 8
CUBOID2
 10
-3.75
 20
-10
 30
9
 70
192
 0
VERTEX
 8
CUBOID2
 10
3.75
 20
-10
 30
9
 70
192
 0
VERTEX
 8
CUBOID2
 10
3.75
 20
5
 30
9
 70
192
 0
VERTEX
 8
CUBOID2
 10
-3.75
 20
5
 30
9
 70
192
 0
VERTEX
 8
CUBOID2
 10
0
 20
-2.5
 30
6.5455
 70
192
 0
VERTEX
 8
CUBOID2
 10
0
 20
-2.5
 30
11.0455
 70
192
 0
VERTEX
 8
CUBOID2
 10
0
 20
-10
 30
9
 70
192
 0
VERTEX
 8
CUBOID2
 10
0
 20
5
 30
9
 70
192
 0
VERTEX
 8
CUBOID2
 10
5
 20
-2.5
 30
8.5909
 70
192
 0
VERTEX
 8
CUBOID2
 10
-5
 20
-2.5
 30
8.5909
 70
192
 0
VERTEX
 8
CUBOID2
 10
0
 20
0
 30
0
 70
128
 71
1
 72
9
 73
21
 74
12
 0
VERTEX
 8
CUBOID2
 10
0
 20
0
 30
0
 70
128
 71
2
 72
10
 73
21
 74
9
 0
VERTEX
 8
CUBOID2
 10
0
 20
0
 30
0
 70
128
 71
3
 72
11
 73
21
 74
10
 0
VERTEX
 8
CUBOID2
 10
0
 20
0
 30
0
 70
128
 71
4
 72
12
 73
21
 74
11
 0
VERTEX
 8
CUBOID2
 10
0
 20
0
 30
0
 70
128
 71
5
 72
16
 73
22
 74
13
 0
VERTEX
 8
CUBOID2
 10
0
 20
0
 30
0
 70
128
 71
8
 72
15
 73
22
 74
16
 0
VERTEX
 8
CUBOID2
 10
0
 20
0
 30
0
 70
128
 71
7
 72
14
 73
22
 74
15
 0
VERTEX
 8
CUBOID2
 10
0
 20
0
 30
0
 70
128
 71
6
 72
13
 73
22
 74
14
 0
VERTEX
 8
CUBOID2
 10
0
 20
0
 30
0
 70
128
 71
1
 72
17
 73
23
 74
9
 0
VERTEX
 8
CUBOID2
 10
0
 20
0
 30
0
 70
128
 71
5
 72
13
 73
23
 74
17
 0
VERTEX
 8
CUBOID2
 10
0
 20
0
 30
0
 70
128
 71
6
 72
18
 73
23
 74
13
 0
VERTEX
 8
CUBOID2
 10
0
 20
0
 30
0
 70
128
 71
2
 72
9
 73
23
 74
18
 0
VERTEX
 8
CUBOID2
 10
0
 20
0
 30
0
 70
128
 71
3
 72
19
 73
24
 74
11
 0
VERTEX
 8
CUBOID2
 10
0
 20
0
 30
0
 70
128
 71
7
 72
15
 73
24
 74
19
 0
VERTEX
 8
CUBOID2
 10
0
 20
0
 30
0
 70
128
 71
8
 72
20
 73
24
 74
15
 0
VERTEX
 8
CUBOID2
 10
0
 20
0
 30
0
 70
128
 71
4
 72
11
 73
24
 74
20
 0
VERTEX
 8
CUBOID2
 10
0
 20
0
 30
0
 70
128
 71
2
 72
18
 73
25
 74
10
 0
VERTEX
 8
CUBOID2
 10
0
 20
0
 30
0
 70
128
 71
6
 72
14
 73
25
 74
18
 0
VERTEX
 8
CUBOID2
 10
0
 20
0
 30
0
 70
128
 71
7
 72
19
 73
25
 74
14
 0
VERTEX
 8
CUBOID2
 10
0
 20
0
 30
0
 70
128
 71
3
 72
10
 73
25
 74
19
 0
VERTEX
 8
CUBOID2
 10
0
 20
0
 30
0
 70
128
 71
1
 72
12
 73
26
 74
17
 0
VERTEX
 8
CUBOID2
 10
0
 20
0
 30
0
 70
128
 71
4
 72
20
 73
26
 74
12
 0
VERTEX
 8
CUBOID2
 10
0
 20
0
 30
0
 70
128
 71
8
 72
16
 73
26
 74
20
 0
VERTEX
 8
CUBOID2
 10
0
 20
0
 30
0
 70
128
 71
5
 72
17
 73
26
 74
16
 0
SEQEND
 0
POLYLINE
 8
CUBOID1
 66
1
 10
0.0
 20
0.0
 30
0.0
 70
64
 71
8
 72
6
 0
VERTEX
 8
CUBOID1
 10
-12.2
 20
22.7574
 30
12.7926
 70
192
 0
VERTEX
 8
CUBOID1
 10
-9.8
 20
22.7574
 30
12.7926
 70
192
 0
VERTEX
 8
CUBOID1
 10
-9.5
 20
30
 30
14.7461
 70
192
 0
VERTEX
 8
CUBOID1
 10
-12.5
 20
30
 30
14.7461
 70
192
 0
VERTEX
 8
CUBOID1
 10
-12.5
 20
22
 30
16.2926
 70
192
 0
VERTEX
 8
CUBOID1
 10
-9.5
 20
22
 30
16.2926
 70
192
 0
VERTEX
 8
CUBOID1
 10
-9.5
 20
30
 30
16.2926
 70
192
 0
VERTEX
 8
CUBOID1
 10
-12.5
 20
30
 30
16.2926
 70
192
 0
VERTEX
 8
CUBOID1
 10
0
 20
0
 30
0
 70
128
 71
1
 72
2
 73
3
 74
4
 0
VERTEX
 8
CUBOID1
 10
0
 20
0
 30
0
 70
128
 71
5
 72
8
 73
7
 74
6
 0
VERTEX
 8
CUBOID1
 10
0
 20
0
 30
0
 70
128
 71
1
 72
5
 73
6
 74
2
 0
VERTEX
 8
CUBOID1
 10
0
 20
0
 30
0
 70
128
 71
3
 72
7
 73
8
 74
4
 0
VERTEX
 8
CUBOID1
 10
0
 20
0
 30
0
 70
128
 71
2
 72
6
 73
7
 74
3
 0
VERTEX
 8
CUBOID1
 10
0
 20
0
 30
0
 70
128
 71
1
 72
4
 73
8
 74
5
 0
SEQEND
 0
POLYLINE
 8
CUBOID
 66
1
 10
0.0
 20
0.0
 30
0.0
 70
64
 71
8
 72
6
 0
VERTEX
 8
CUBOID
 10
9.8
 20
22.7574
 30
12.7926
 70
192
 0
VERTEX
 8
CUBOID
 10
12.2
 20
22.7574
 30
12.7926
 70
192
 0
VERTEX
 8
CUBOID
 10
12.5
 20
30
 30
14.7461
 70
192
 0
VERTEX
 8
CUBOID
 10
9.5
 20
30
 30
14.7461
 70
192
 0
VERTEX
 8
CUBOID
 10
9.5
 20
22
 30
16.2926
 70
192
 0
VERTEX
 8
CUBOID
 10
12.5
 20
22
 30
16.2926
 70
192
 0
VERTEX
 8
CUBOID
 10
12.5
 20
30
 30
16.2926
 70
192
 0
VERTEX
 8
CUBOID
 10
9.5
 20
30
 30
16.2926
 70
192
 0
VERTEX
 8
CUBOID
 10
0
 20
0
 30
0
 70
128
 71
1
 72
2
 73
3
 74
4
 0
VERTEX
 8
CUBOID
 10
0
 20
0
 30
0
 70
128
 71
5
 72
8
 73
7
 74
6
 0
VERTEX
 8
CUBOID
 10
0
 20
0
 30
0
 70
128
 71
1
 72
5
 73
6
 74
2
 0
VERTEX
 8
CUBOID
 10
0
 20
0
 30
0
 70
128
 71
3
 72
7
 73
8
 74
4
 0
VERTEX
 8
CUBOID
 10
0
 20
0
 30
0
 70
128
 71
2
 72
6
 73
7
 74
3
 0
VERTEX
 8
CUBOID
 10
0
 20
0
 30
0
 70
128
 71
1
 72
4
 73
8
 74
5
 0
SEQEND
 0
POLYLINE
 8
CUBOID.1
 66
1
 10
0.0
 20
0.0
 30
0.0
 70
64
 71
26
 72
24
 0
VERTEX
 8
CUBOID.1
 10
-2.7734
 20
-17.2584
 30
5.954
 70
192
 0
VERTEX
 8
CUBOID.1
 10
2.7734
 20
-17.2584
 30
5.954
 70
192
 0
VERTEX
 8
CUBOID.1
 10
1.9636
 20
-12.3617
 30
7.9923
 70
192
 0
VERTEX
 8
CUBOID.1
 10
-1.9636
 20
-12.3617
 30
7.9923
 70
192
 0
VERTEX
 8
CUBOID.1
 10
-2.718
 20
-20.98
 30
12.9285
 70
192
 0
VERTEX
 8
CUBOID.1
 10
2.718
 20
-20.98
 30
12.9285
 70
192
 0
VERTEX
 8
CUBOID.1
 10
2.3891
 20
-16.1409
 30
15.4049
 70
192
 0
VERTEX
 8
CUBOID.1
 10
-2.3891
 20
-16.1409
 30
15.4049
 70
192
 0
VERTEX
 8
CUBOID.1
 10
0
 20
-17.2391
 30
5.4964
 70
192
 0
VERTEX
 8
CUBOID.1
 10
2.6375
 20
-14.7097
 30
6.7908
 70
192
 0
VERTEX
 8
CUBOID.1
 10
0
 20
-12.3617
 30
7.9923
 70
192
 0
VERTEX
 8
CUBOID.1
 10
-2.6375
 20
-14.7097
 30
6.7908
 70
192
 0
VERTEX
 8
CUBOID.1
 10
0
 20
-20.98
 30
12.9285
 70
192
 0
VERTEX
 8
CUBOID.1
 10
2.718
 20
-18.5605
 30
14.1667
 70
192
 0
VERTEX
 8
CUBOID.1
 10
0
 20
-16.1409
 30
15.4049
 70
192
 0
VERTEX
 8
CUBOID.1
 10
-2.718
 20
-18.5605
 30
14.1667
 70
192
 0
VERTEX
 8
CUBOID.1
 10
-3.0536
 20
-19.7009
 30
8.9099
 70
192
 0
VERTEX
 8
CUBOID.1
 10
3.0536
 20
-19.7009
 30
8.9099
 70
192
 0
VERTEX
 8
CUBOID.1
 10
3.0536
 20
-13.6298
 30
12.0167
 70
192
 0
VERTEX
 8
CUBOID.1
 10
-3.0536
 20
-13.6298
 30
12.0167
 70
192
 0
VERTEX
 8
CUBOID.1
 10
0
 20
-14.7097
 30
6.7908
 70
192
 0
VERTEX
 8
CUBOID.1
 10
0
 20
-18.908
 30
14.8458
 70
192
 0
VERTEX
 8
CUBOID.1
 10
0
 20
-20.3111
 30
7.8186
 70
192
 0
VERTEX
 8
CUBOID.1
 10
0
 20
-13.6298
 30
12.0167
 70
192
 0
VERTEX
 8
CUBOID.1
 10
3.0536
 20
-16.6653
 30
10.4633
 70
192
 0
VERTEX
 8
CUBOID.1
 10
-3.0536
 20
-16.6653
 30
10.4633
 70
192
 0
VERTEX
 8
CUBOID.1
 10
0
 20
0
 30
0
 70
128
 71
1
 72
9
 73
21
 74
12
 0
VERTEX
 8
CUBOID.1
 10
0
 20
0
 30
0
 70
128
 71
2
 72
10
 73
21
 74
9
 0
VERTEX
 8
CUBOID.1
 10
0
 20
0
 30
0
 70
128
 71
3
 72
11
 73
21
 74
10
 0
VERTEX
 8
CUBOID.1
 10
0
 20
0
 30
0
 70
128
 71
4
 72
12
 73
21
 74
11
 0
VERTEX
 8
CUBOID.1
 10
0
 20
0
 30
0
 70
128
 71
5
 72
16
 73
22
 74
13
 0
VERTEX
 8
CUBOID.1
 10
0
 20
0
 30
0
 70
128
 71
8
 72
15
 73
22
 74
16
 0
VERTEX
 8
CUBOID.1
 10
0
 20
0
 30
0
 70
128
 71
7
 72
14
 73
22
 74
15
 0
VERTEX
 8
CUBOID.1
 10
0
 20
0
 30
0
 70
128
 71
6
 72
13
 73
22
 74
14
 0
VERTEX
 8
CUBOID.1
 10
0
 20
0
 30
0
 70
128
 71
1
 72
17
 73
23
 74
9
 0
VERTEX
 8
CUBOID.1
 10
0
 20
0
 30
0
 70
128
 71
5
 72
13
 73
23
 74
17
 0
VERTEX
 8
CUBOID.1
 10
0
 20
0
 30
0
 70
128
 71
6
 72
18
 73
23
 74
13
 0
VERTEX
 8
CUBOID.1
 10
0
 20
0
 30
0
 70
128
 71
2
 72
9
 73
23
 74
18
 0
VERTEX
 8
CUBOID.1
 10
0
 20
0
 30
0
 70
128
 71
3
 72
19
 73
24
 74
11
 0
VERTEX
 8
CUBOID.1
 10
0
 20
0
 30
0
 70
128
 71
7
 72
15
 73
24
 74
19
 0
VERTEX
 8
CUBOID.1
 10
0
 20
0
 30
0
 70
128
 71
8
 72
20
 73
24
 74
15
 0
VERTEX
 8
CUBOID.1
 10
0
 20
0
 30
0
 70
128
 71
4
 72
11
 73
24
 74
20
 0
VERTEX
 8
CUBOID.1
 10
0
 20
0
 30
0
 70
128
 71
2
 72
18
 73
25
 74
10
 0
VERTEX
 8
CUBOID.1
 10
0
 20
0
 30
0
 70
128
 71
6
 72
14
 73
25
 74
18
 0
VERTEX
 8
CUBOID.1
 10
0
 20
0
 30
0
 70
128
 71
7
 72
19
 73
25
 74
14
 0
VERTEX
 8
CUBOID.1
 10
0
 20
0
 30
0
 70
128
 71
3
 72
10
 73
25
 74
19
 0
VERTEX
 8
CUBOID.1
 10
0
 20
0
 30
0
 70
128
 71
1
 72
12
 73
26
 74
17
 0
VERTEX
 8
CUBOID.1
 10
0
 20
0
 30
0
 70
128
 71
4
 72
20
 73
26
 74
12
 0
VERTEX
 8
CUBOID.1
 10
0
 20
0
 30
0
 70
128
 71
8
 72
16
 73
26
 74
20
 0
VERTEX
 8
CUBOID.1
 10
0
 20
0
 30
0
 70
128
 71
5
 72
17
 73
26
 74
16
 0
SEQEND
 0
POLYLINE
 8
CUBOID1.1
 66
1
 10
0.0
 20
0.0
 30
0.0
 70
64
 71
26
 72
24
 0
VERTEX
 8
CUBOID1.1
 10
-5.9264
 20
6.7789
 30
1.1883
 70
192
 0
VERTEX
 8
CUBOID1.1
 10
5.9264
 20
6.7789
 30
1.1883
 70
192
 0
VERTEX
 8
CUBOID1.1
 10
5.9264
 20
6.7789
 30
7.7109
 70
192
 0
VERTEX
 8
CUBOID1.1
 10
-5.9264
 20
6.7789
 30
7.7109
 70
192
 0
VERTEX
 8
CUBOID1.1
 10
-5.9264
 20
-11.7392
 30
1.1883
 70
192
 0
VERTEX
 8
CUBOID1.1
 10
5.9264
 20
-11.7392
 30
1.1883
 70
192
 0
VERTEX
 8
CUBOID1.1
 10
5.9264
 20
-11.7392
 30
7.7109
 70
192
 0
VERTEX
 8
CUBOID1.1
 10
-5.9264
 20
-11.7392
 30
7.7109
 70
192
 0
VERTEX
 8
CUBOID1.1
 10
0
 20
7.3499
 30
1.1883
 70
192
 0
VERTEX
 8
CUBOID1.1
 10
5.9264
 20
6.7789
 30
4.4496
 70
192
 0
VERTEX
 8
CUBOID1.1
 10
0
 20
7.3435
 30
7.7109
 70
192
 0
VERTEX
 8
CUBOID1.1
 10
-5.9264
 20
6.7789
 30
4.4496
 70
192
 0
VERTEX
 8
CUBOID1.1
 10
0
 20
-11.7392
 30
1.1883
 70
192
 0
VERTEX
 8
CUBOID1.1
 10
7.5
 20
-11.7392
 30
4.4496
 70
192
 0
VERTEX
 8
CUBOID1.1
 10
0
 20
-11.7392
 30
7.7109
 70
192
 0
VERTEX
 8
CUBOID1.1
 10
-7.5
 20
-11.7392
 30
4.4496
 70
192
 0
VERTEX
 8
CUBOID1.1
 10
-5.1798
 20
-1.1529
 30
0.2109
 70
192
 0
VERTEX
 8
CUBOID1.1
 10
5.1798
 20
-1.1529
 30
0.2109
 70
192
 0
VERTEX
 8
CUBOID1.1
 10
5.1798
 20
-1.1529
 30
5.9116
 70
192
 0
VERTEX
 8
CUBOID1.1
 10
-5.1798
 20
-1.1529
 30
5.9116
 70
192
 0
VERTEX
 8
CUBOID1.1
 10
0
 20
8.7698
 30
4.8002
 70
192
 0
VERTEX
 8
CUBOID1.1
 10
0
 20
-13.7302
 30
4.9755
 70
192
 0
VERTEX
 8
CUBOID1.1
 10
0
 20
-1.1529
 30
0.2109
 70
192
 0
VERTEX
 8
CUBOID1.1
 10
0
 20
-1.1529
 30
5.9116
 70
192
 0
VERTEX
 8
CUBOID1.1
 10
5.1798
 20
-1.1529
 30
3.0612
 70
192
 0
VERTEX
 8
CUBOID1.1
 10
-5.1798
 20
-1.1529
 30
3.0612
 70
192
 0
VERTEX
 8
CUBOID1.1
 10
0
 20
0
 30
0
 70
128
 71
1
 72
9
 73
21
 74
12
 0
VERTEX
 8
CUBOID1.1
 10
0
 20
0
 30
0
 70
128
 71
2
 72
10
 73
21
 74
9
 0
VERTEX
 8
CUBOID1.1
 10
0
 20
0
 30
0
 70
128
 71
3
 72
11
 73
21
 74
10
 0
VERTEX
 8
CUBOID1.1
 10
0
 20
0
 30
0
 70
128
 71
4
 72
12
 73
21
 74
11
 0
VERTEX
 8
CUBOID1.1
 10
0
 20
0
 30
0
 70
128
 71
5
 72
16
 73
22
 74
13
 0
VERTEX
 8
CUBOID1.1
 10
0
 20
0
 30
0
 70
128
 71
8
 72
15
 73
22
 74
16
 0
VERTEX
 8
CUBOID1.1
 10
0
 20
0
 30
0
 70
128
 71
7
 72
14
 73
22
 74
15
 0
VERTEX
 8
CUBOID1.1
 10
0
 20
0
 30
0
 70
128
 71
6
 72
13
 73
22
 74
14
 0
VERTEX
 8
CUBOID1.1
 10
0
 20
0
 30
0
 70
128
 71
1
 72
17
 73
23
 74
9
 0
VERTEX
 8
CUBOID1.1
 10
0
 20
0
 30
0
 70
128
 71
5
 72
13
 73
23
 74
17
 0
VERTEX
 8
CUBOID1.1
 10
0
 20
0
 30
0
 70
128
 71
6
 72
18
 73
23
 74
13
 0
VERTEX
 8
CUBOID1.1
 10
0
 20
0
 30
0
 70
128
 71
2
 72
9
 73
23
 74
18
 0
VERTEX
 8
CUBOID1.1
 10
0
 20
0
 30
0
 70
128
 71
3
 72
19
 73
24
 74
11
 0
VERTEX
 8
CUBOID1.1
 10
0
 20
0
 30
0
 70
128
 71
7
 72
15
 73
24
 74
19
 0
VERTEX
 8
CUBOID1.1
 10
0
 20
0
 30
0
 70
128
 71
8
 72
20
 73
24
 74
15
 0
VERTEX
 8
CUBOID1.1
 10
0
 20
0
 30
0
 70
128
 71
4
 72
11
 73
24
 74
20
 0
VERTEX
 8
CUBOID1.1
 10
0
 20
0
 30
0
 70
128
 71
2
 72
18
 73
25
 74
10
 0
VERTEX
 8
CUBOID1.1
 10
0
 20
0
 30
0
 70
128
 71
6
 72
14
 73
25
 74
18
 0
VERTEX
 8
CUBOID1.1
 10
0
 20
0
 30
0
 70
128
 71
7
 72
19
 73
25
 74
14
 0
VERTEX
 8
CUBOID1.1
 10
0
 20
0
 30
0
 70
128
 71
3
 72
10
 73
25
 74
19
 0
VERTEX
 8
CUBOID1.1
 10
0
 20
0
 30
0
 70
128
 71
1
 72
12
 73
26
 74
17
 0
VERTEX
 8
CUBOID1.1
 10
0
 20
0
 30
0
 70
128
 71
4
 72
20
 73
26
 74
12
 0
VERTEX
 8
CUBOID1.1
 10
0
 20
0
 30
0
 70
128
 71
8
 72
16
 73
26
 74
20
 0
VERTEX
 8
CUBOID1.1
 10
0
 20
0
 30
0
 70
128
 71
5
 72
17
 73
26
 74
16
 0
SEQEND
 0
POLYLINE
 8
CUBOID2.1
 66
1
 10
0.0
 20
0.0
 30
0.0
 70
64
 71
26
 72
24
 0
VERTEX
 8
CUBOID2.1
 10
7.1264
 20
-10.3335
 30
1.653
 70
192
 0
VERTEX
 8
CUBOID2.1
 10
8.5385
 20
-9.7342
 30
5.8676
 70
192
 0
VERTEX
 8
CUBOID2.1
 10
5.1039
 20
-11.1921
 30
7.2257
 70
192
 0
VERTEX
 8
CUBOID2.1
 10
3.6918
 20
-11.7914
 30
3.0111
 70
192
 0
VERTEX
 8
CUBOID2.1
 10
14.113
 20
-26.7928
 30
1.653
 70
192
 0
VERTEX
 8
CUBOID2.1
 10
15.525
 20
-26.1934
 30
5.8676
 70
192
 0
VERTEX
 8
CUBOID2.1
 10
12.0904
 20
-27.6513
 30
7.2257
 70
192
 0
VERTEX
 8
CUBOID2.1
 10
10.6784
 20
-28.2507
 30
3.0111
 70
192
 0
VERTEX
 8
CUBOID2.1
 10
7.6171
 20
-9.5264
 30
3.7603
 70
192
 0
VERTEX
 8
CUBOID2.1
 10
6.8212
 20
-10.4631
 30
6.5466
 70
192
 0
VERTEX
 8
CUBOID2.1
 10
4.1849
 20
-10.99
 30
5.1184
 70
192
 0
VERTEX
 8
CUBOID2.1
 10
5.4091
 20
-11.0625
 30
2.332
 70
192
 0
VERTEX
 8
CUBOID2.1
 10
14.819
 20
-26.4931
 30
3.7603
 70
192
 0
VERTEX
 8
CUBOID2.1
 10
13.9952
 20
-26.8428
 30
7.1061
 70
192
 0
VERTEX
 8
CUBOID2.1
 10
11.3844
 20
-27.951
 30
5.1184
 70
192
 0
VERTEX
 8
CUBOID2.1
 10
12.2082
 20
-27.6013
 30
1.7725
 70
192
 0
VERTEX
 8
CUBOID2.1
 10
12.9455
 20
-16.1837
 30
0.8361
 70
192
 0
VERTEX
 8
CUBOID2.1
 10
14.1796
 20
-15.6599
 30
4.5197
 70
192
 0
VERTEX
 8
CUBOID2.1
 10
11.1778
 20
-16.9341
 30
5.7066
 70
192
 0
VERTEX
 8
CUBOID2.1
 10
9.9436
 20
-17.458
 30
2.023
 70
192
 0
VERTEX
 8
CUBOID2.1
 10
5.1794
 20
-9.0717
 30
4.5123
 70
192
 0
VERTEX
 8
CUBOID2.1
 10
13.5759
 20
-29.1091
 30
4.5488
 70
192
 0
VERTEX
 8
CUBOID2.1
 10
13.5626
 20
-15.9218
 30
2.6779
 70
192
 0
VERTEX
 8
CUBOID2.1
 10
10.5607
 20
-17.196
 30
3.8648
 70
192
 0
VERTEX
 8
CUBOID2.1
 10
12.6787
 20
-16.297
 30
5.1131
 70
192
 0
VERTEX
 8
CUBOID2.1
 10
11.4446
 20
-16.8208
 30
1.4296
 70
192
 0
VERTEX
 8
CUBOID2.1
 10
0
 20
0
 30
0
 70
128
 71
1
 72
9
 73
21
 74
12
 0
VERTEX
 8
CUBOID2.1
 10
0
 20
0
 30
0
 70
128
 71
2
 72
10
 73
21
 74
9
 0
VERTEX
 8
CUBOID2.1
 10
0
 20
0
 30
0
 70
128
 71
3
 72
11
 73
21
 74
10
 0
VERTEX
 8
CUBOID2.1
 10
0
 20
0
 30
0
 70
128
 71
4
 72
12
 73
21
 74
11
 0
VERTEX
 8
CUBOID2.1
 10
0
 20
0
 30
0
 70
128
 71
5
 72
16
 73
22
 74
13
 0
VERTEX
 8
CUBOID2.1
 10
0
 20
0
 30
0
 70
128
 71
8
 72
15
 73
22
 74
16
 0
VERTEX
 8
CUBOID2.1
 10
0
 20
0
 30
0
 70
128
 71
7
 72
14
 73
22
 74
15
 0
VERTEX
 8
CUBOID2.1
 10
0
 20
0
 30
0
 70
128
 71
6
 72
13
 73
22
 74
14
 0
VERTEX
 8
CUBOID2.1
 10
0
 20
0
 30
0
 70
128
 71
1
 72
17
 73
23
 74
9
 0
VERTEX
 8
CUBOID2.1
 10
0
 20
0
 30
0
 70
128
 71
5
 72
13
 73
23
 74
17
 0
VERTEX
 8
CUBOID2.1
 10
0
 20
0
 30
0
 70
128
 71
6
 72
18
 73
23
 74
13
 0
VERTEX
 8
CUBOID2.1
 10
0
 20
0
 30
0
 70
128
 71
2
 72
9
 73
23
 74
18
 0
VERTEX
 8
CUBOID2.1
 10
0
 20
0
 30
0
 70
128
 71
3
 72
19
 73
24
 74
11
 0
VERTEX
 8
CUBOID2.1
 10
0
 20
0
 30
0
 70
128
 71
7
 72
15
 73
24
 74
19
 0
VERTEX
 8
CUBOID2.1
 10
0
 20
0
 30
0
 70
128
 71
8
 72
20
 73
24
 74
15
 0
VERTEX
 8
CUBOID2.1
 10
0
 20
0
 30
0
 70
128
 71
4
 72
11
 73
24
 74
20
 0
VERTEX
 8
CUBOID2.1
 10
0
 20
0
 30
0
 70
128
 71
2
 72
18
 73
25
 74
10
 0
VERTEX
 8
CUBOID2.1
 10
0
 20
0
 30
0
 70
128
 71
6
 72
14
 73
25
 74
18
 0
VERTEX
 8
CUBOID2.1
 10
0
 20
0
 30
0
 70
128
 71
7
 72
19
 73
25
 74
14
 0
VERTEX
 8
CUBOID2.1
 10
0
 20
0
 30
0
 70
128
 71
3
 72
10
 73
25
 74
19
 0
VERTEX
 8
CUBOID2.1
 10
0
 20
0
 30
0
 70
128
 71
1
 72
12
 73
26
 74
17
 0
VERTEX
 8
CUBOID2.1
 10
0
 20
0
 30
0
 70
128
 71
4
 72
20
 73
26
 74
12
 0
VERTEX
 8
CUBOID2.1
 10
0
 20
0
 30
0
 70
128
 71
8
 72
16
 73
26
 74
20
 0
VERTEX
 8
CUBOID2.1
 10
0
 20
0
 30
0
 70
128
 71
5
 72
17
 73
26
 74
16
 0
SEQEND
 0
POLYLINE
 8
CUBOID3.1
 66
1
 10
0.0
 20
0.0
 30
0.0
 70
64
 71
26
 72
24
 0
VERTEX
 8
CUBOID3.1
 10
-14.113
 20
-26.7928
 30
1.653
 70
192
 0
VERTEX
 8
CUBOID3.1
 10
-15.525
 20
-26.1934
 30
5.8676
 70
192
 0
VERTEX
 8
CUBOID3.1
 10
-12.0904
 20
-27.6513
 30
7.2257
 70
192
 0
VERTEX
 8
CUBOID3.1
 10
-10.6784
 20
-28.2507
 30
3.0111
 70
192
 0
VERTEX
 8
CUBOID3.1
 10
-7.1265
 20
-10.3335
 30
1.653
 70
192
 0
VERTEX
 8
CUBOID3.1
 10
-8.5385
 20
-9.7342
 30
5.8676
 70
192
 0
VERTEX
 8
CUBOID3.1
 10
-5.1039
 20
-11.1921
 30
7.2257
 70
192
 0
VERTEX
 8
CUBOID3.1
 10
-3.6918
 20
-11.7914
 30
3.0111
 70
192
 0
VERTEX
 8
CUBOID3.1
 10
-15.0344
 20
-27.0006
 30
3.7603
 70
192
 0
VERTEX
 8
CUBOID3.1
 10
-13.8077
 20
-26.9224
 30
6.5466
 70
192
 0
VERTEX
 8
CUBOID3.1
 10
-11.5974
 20
-28.4527
 30
5.1184
 70
192
 0
VERTEX
 8
CUBOID3.1
 10
-12.3957
 20
-27.5217
 30
2.332
 70
192
 0
VERTEX
 8
CUBOID3.1
 10
-7.8325
 20
-10.0339
 30
3.7603
 70
192
 0
VERTEX
 8
CUBOID3.1
 10
-7.0086
 20
-10.3836
 30
7.1061
 70
192
 0
VERTEX
 8
CUBOID3.1
 10
-4.3979
 20
-11.4918
 30
5.1184
 70
192
 0
VERTEX
 8
CUBOID3.1
 10
-5.2217
 20
-11.1421
 30
1.7725
 70
192
 0
VERTEX
 8
CUBOID3.1
 10
-13.9469
 20
-18.543
 30
0.8361
 70
192
 0
VERTEX
 8
CUBOID3.1
 10
-15.1811
 20
-18.0192
 30
4.5197
 70
192
 0
VERTEX
 8
CUBOID3.1
 10
-12.1792
 20
-19.2934
 30
5.7066
 70
192
 0
VERTEX
 8
CUBOID3.1
 10
-10.9451
 20
-19.8172
 30
2.023
 70
192
 0
VERTEX
 8
CUBOID3.1
 10
-13.6682
 20
-29.0699
 30
4.5123
 70
192
 0
VERTEX
 8
CUBOID3.1
 10
-5.0871
 20
-9.1109
 30
4.5488
 70
192
 0
VERTEX
 8
CUBOID3.1
 10
-14.564
 20
-18.2811
 30
2.6779
 70
192
 0
VERTEX
 8
CUBOID3.1
 10
-11.5622
 20
-19.5553
 30
3.8648
 70
192
 0
VERTEX
 8
CUBOID3.1
 10
-13.6802
 20
-18.6563
 30
5.1131
 70
192
 0
VERTEX
 8
CUBOID3.1
 10
-12.446
 20
-19.1801
 30
1.4296
 70
192
 0
VERTEX
 8
CUBOID3.1
 10
0
 20
0
 30
0
 70
128
 71
1
 72
9
 73
21
 74
12
 0
VERTEX
 8
CUBOID3.1
 10
0
 20
0
 30
0
 70
128
 71
2
 72
10
 73
21
 74
9
 0
VERTEX
 8
CUBOID3.1
 10
0
 20
0
 30
0
 70
128
 71
3
 72
11
 73
21
 74
10
 0
VERTEX
 8
CUBOID3.1
 10
0
 20
0
 30
0
 70
128
 71
4
 72
12
 73
21
 74
11
 0
VERTEX
 8
CUBOID3.1
 10
0
 20
0
 30
0
 70
128
 71
5
 72
16
 73
22
 74
13
 0
VERTEX
 8
CUBOID3.1
 10
0
 20
0
 30
0
 70
128
 71
8
 72
15
 73
22
 74
16
 0
VERTEX
 8
CUBOID3.1
 10
0
 20
0
 30
0
 70
128
 71
7
 72
14
 73
22
 74
15
 0
VERTEX
 8
CUBOID3.1
 10
0
 20
0
 30
0
 70
128
 71
6
 72
13
 73
22
 74
14
 0
VERTEX
 8
CUBOID3.1
 10
0
 20
0
 30
0
 70
128
 71
1
 72
17
 73
23
 74
9
 0
VERTEX
 8
CUBOID3.1
 10
0
 20
0
 30
0
 70
128
 71
5
 72
13
 73
23
 74
17
 0
VERTEX
 8
CUBOID3.1
 10
0
 20
0
 30
0
 70
128
 71
6
 72
18
 73
23
 74
13
 0
VERTEX
 8
CUBOID3.1
 10
0
 20
0
 30
0
 70
128
 71
2
 72
9
 73
23
 74
18
 0
VERTEX
 8
CUBOID3.1
 10
0
 20
0
 30
0
 70
128
 71
3
 72
19
 73
24
 74
11
 0
VERTEX
 8
CUBOID3.1
 10
0
 20
0
 30
0
 70
128
 71
7
 72
15
 73
24
 74
19
 0
VERTEX
 8
CUBOID3.1
 10
0
 20
0
 30
0
 70
128
 71
8
 72
20
 73
24
 74
15
 0
VERTEX
 8
CUBOID3.1
 10
0
 20
0
 30
0
 70
128
 71
4
 72
11
 73
24
 74
20
 0
VERTEX
 8
CUBOID3.1
 10
0
 20
0
 30
0
 70
128
 71
2
 72
18
 73
25
 74
10
 0
VERTEX
 8
CUBOID3.1
 10
0
 20
0
 30
0
 70
128
 71
6
 72
14
 73
25
 74
18
 0
VERTEX
 8
CUBOID3.1
 10
0
 20
0
 30
0
 70
128
 71
7
 72
19
 73
25
 74
14
 0
VERTEX
 8
CUBOID3.1
 10
0
 20
0
 30
0
 70
128
 71
3
 72
10
 73
25
 74
19
 0
VERTEX
 8
CUBOID3.1
 10
0
 20
0
 30
0
 70
128
 71
1
 72
12
 73
26
 74
17
 0
VERTEX
 8
CUBOID3.1
 10
0
 20
0
 30
0
 70
128
 71
4
 72
20
 73
26
 74
12
 0
VERTEX
 8
CUBOID3.1
 10
0
 20
0
 30
0
 70
128
 71
8
 72
16
 73
26
 74
20
 0
VERTEX
 8
CUBOID3.1
 10
0
 20
0
 30
0
 70
128
 71
5
 72
17
 73
26
 74
16
 0
SEQEND
 0
POLYLINE
 8
CUBOID4.1
 66
1
 10
0.0
 20
0.0
 30
0.0
 70
64
 71
26
 72
24
 0
VERTEX
 8
CUBOID4.1
 10
-12.7393
 20
22.7974
 30
10.8205
 70
192
 0
VERTEX
 8
CUBOID4.1
 10
-8.6107
 20
24.5499
 30
10.8205
 70
192
 0
VERTEX
 8
CUBOID4.1
 10
-7.955
 20
23.0052
 30
14.4192
 70
192
 0
VERTEX
 8
CUBOID4.1
 10
-12.0836
 20
21.2528
 30
14.4192
 70
192
 0
VERTEX
 8
CUBOID4.1
 10
-6.4073
 20
7.8803
 30
3.2638
 70
192
 0
VERTEX
 8
CUBOID4.1
 10
-2.2788
 20
9.6328
 30
3.2638
 70
192
 0
VERTEX
 8
CUBOID4.1
 10
-1.6231
 20
8.0881
 30
6.8625
 70
192
 0
VERTEX
 8
CUBOID4.1
 10
-5.7517
 20
6.3356
 30
6.8625
 70
192
 0
VERTEX
 8
CUBOID4.1
 10
-10.8702
 20
24.1336
 30
11.0535
 70
192
 0
VERTEX
 8
CUBOID4.1
 10
-8.2829
 20
23.7776
 30
12.6199
 70
192
 0
VERTEX
 8
CUBOID4.1
 10
-10.2123
 20
22.5837
 30
14.6495
 70
192
 0
VERTEX
 8
CUBOID4.1
 10
-12.4114
 20
22.0251
 30
12.6199
 70
192
 0
VERTEX
 8
CUBOID4.1
 10
-4.3431
 20
8.7565
 30
3.2638
 70
192
 0
VERTEX
 8
CUBOID4.1
 10
-1.4029
 20
9.0931
 30
5.0632
 70
192
 0
VERTEX
 8
CUBOID4.1
 10
-3.6874
 20
7.2118
 30
6.8625
 70
192
 0
VERTEX
 8
CUBOID4.1
 10
-6.6276
 20
6.8753
 30
5.0632
 70
192
 0
VERTEX
 8
CUBOID4.1
 10
-10.2896
 20
17.7496
 30
4.7155
 70
192
 0
VERTEX
 8
CUBOID4.1
 10
-6.6813
 20
19.2812
 30
4.7155
 70
192
 0
VERTEX
 8
CUBOID4.1
 10
-6.1082
 20
17.9312
 30
7.8607
 70
192
 0
VERTEX
 8
CUBOID4.1
 10
-9.7166
 20
16.3995
 30
7.8607
 70
192
 0
VERTEX
 8
CUBOID4.1
 10
-10.9926
 20
24.422
 30
13.6257
 70
192
 0
VERTEX
 8
CUBOID4.1
 10
-3.2816
 20
6.2559
 30
4.5409
 70
192
 0
VERTEX
 8
CUBOID4.1
 10
-8.4854
 20
18.5154
 30
4.7155
 70
192
 0
VERTEX
 8
CUBOID4.1
 10
-7.9124
 20
17.1654
 30
7.8607
 70
192
 0
VERTEX
 8
CUBOID4.1
 10
-6.3947
 20
18.6062
 30
6.2881
 70
192
 0
VERTEX
 8
CUBOID4.1
 10
-10.0031
 20
17.0746
 30
6.2881
 70
192
 0
VERTEX
 8
CUBOID4.1
 10
0
 20
0
 30
0
 70
128
 71
1
 72
9
 73
21
 74
12
 0
VERTEX
 8
CUBOID4.1
 10
0
 20
0
 30
0
 70
128
 71
2
 72
10
 73
21
 74
9
 0
VERTEX
 8
CUBOID4.1
 10
0
 20
0
 30
0
 70
128
 71
3
 72
11
 73
21
 74
10
 0
VERTEX
 8
CUBOID4.1
 10
0
 20
0
 30
0
 70
128
 71
4
 72
12
 73
21
 74
11
 0
VERTEX
 8
CUBOID4.1
 10
0
 20
0
 30
0
 70
128
 71
5
 72
16
 73
22
 74
13
 0
VERTEX
 8
CUBOID4.1
 10
0
 20
0
 30
0
 70
128
 71
8
 72
15
 73
22
 74
16
 0
VERTEX
 8
CUBOID4.1
 10
0
 20
0
 30
0
 70
128
 71
7
 72
14
 73
22
 74
15
 0
VERTEX
 8
CUBOID4.1
 10
0
 20
0
 30
0
 70
128
 71
6
 72
13
 73
22
 74
14
 0
VERTEX
 8
CUBOID4.1
 10
0
 20
0
 30
0
 70
128
 71
1
 72
17
 73
23
 74
9
 0
VERTEX
 8
CUBOID4.1
 10
0
 20
0
 30
0
 70
128
 71
5
 72
13
 73
23
 74
17
 0
VERTEX
 8
CUBOID4.1
 10
0
 20
0
 30
0
 70
128
 71
6
 72
18
 73
23
 74
13
 0
VERTEX
 8
CUBOID4.1
 10
0
 20
0
 30
0
 70
128
 71
2
 72
9
 73
23
 74
18
 0
VERTEX
 8
CUBOID4.1
 10
0
 20
0
 30
0
 70
128
 71
3
 72
19
 73
24
 74
11
 0
VERTEX
 8
CUBOID4.1
 10
0
 20
0
 30
0
 70
128
 71
7
 72
15
 73
24
 74
19
 0
VERTEX
 8
CUBOID4.1
 10
0
 20
0
 30
0
 70
128
 71
8
 72
20
 73
24
 74
15
 0
VERTEX
 8
CUBOID4.1
 10
0
 20
0
 30
0
 70
128
 71
4
 72
11
 73
24
 74
20
 0
VERTEX
 8
CUBOID4.1
 10
0
 20
0
 30
0
 70
128
 71
2
 72
18
 73
25
 74
10
 0
VERTEX
 8
CUBOID4.1
 10
0
 20
0
 30
0
 70
128
 71
6
 72
14
 73
25
 74
18
 0
VERTEX
 8
CUBOID4.1
 10
0
 20
0
 30
0
 70
128
 71
7
 72
19
 73
25
 74
14
 0
VERTEX
 8
CUBOID4.1
 10
0
 20
0
 30
0
 70
128
 71
3
 72
10
 73
25
 74
19
 0
VERTEX
 8
CUBOID4.1
 10
0
 20
0
 30
0
 70
128
 71
1
 72
12
 73
26
 74
17
 0
VERTEX
 8
CUBOID4.1
 10
0
 20
0
 30
0
 70
128
 71
4
 72
20
 73
26
 74
12
 0
VERTEX
 8
CUBOID4.1
 10
0
 20
0
 30
0
 70
128
 71
8
 72
16
 73
26
 74
20
 0
VERTEX
 8
CUBOID4.1
 10
0
 20
0
 30
0
 70
128
 71
5
 72
17
 73
26
 74
16
 0
SEQEND
 0
POLYLINE
 8
CUBOID5
 66
1
 10
0.0
 20
0.0
 30
0.0
 70
64
 71
26
 72
24
 0
VERTEX
 8
CUBOID5
 10
8.6107
 20
24.5499
 30
10.8205
 70
192
 0
VERTEX
 8
CUBOID5
 10
12.7393
 20
22.7974
 30
10.8205
 70
192
 0
VERTEX
 8
CUBOID5
 10
12.0836
 20
21.2528
 30
14.4192
 70
192
 0
VERTEX
 8
CUBOID5
 10
7.9551
 20
23.0052
 30
14.4192
 70
192
 0
VERTEX
 8
CUBOID5
 10
2.2788
 20
9.6328
 30
3.2638
 70
192
 0
VERTEX
 8
CUBOID5
 10
6.4073
 20
7.8803
 30
3.2638
 70
192
 0
VERTEX
 8
CUBOID5
 10
5.7516
 20
6.3356
 30
6.8625
 70
192
 0
VERTEX
 8
CUBOID5
 10
1.6231
 20
8.0881
 30
6.8625
 70
192
 0
VERTEX
 8
CUBOID5
 10
10.8702
 20
24.1336
 30
11.0535
 70
192
 0
VERTEX
 8
CUBOID5
 10
12.4114
 20
22.0251
 30
12.6199
 70
192
 0
VERTEX
 8
CUBOID5
 10
10.2124
 20
22.5837
 30
14.6495
 70
192
 0
VERTEX
 8
CUBOID5
 10
8.2829
 20
23.7776
 30
12.6199
 70
192
 0
VERTEX
 8
CUBOID5
 10
4.343
 20
8.7565
 30
3.2638
 70
192
 0
VERTEX
 8
CUBOID5
 10
6.6275
 20
6.8753
 30
5.0632
 70
192
 0
VERTEX
 8
CUBOID5
 10
3.6874
 20
7.2119
 30
6.8625
 70
192
 0
VERTEX
 8
CUBOID5
 10
1.4029
 20
9.0931
 30
5.0632
 70
192
 0
VERTEX
 8
CUBOID5
 10
6.6813
 20
19.2812
 30
4.7155
 70
192
 0
VERTEX
 8
CUBOID5
 10
10.2896
 20
17.7496
 30
4.7155
 70
192
 0
VERTEX
 8
CUBOID5
 10
9.7166
 20
16.3995
 30
7.8607
 70
192
 0
VERTEX
 8
CUBOID5
 10
6.1082
 20
17.9312
 30
7.8607
 70
192
 0
VERTEX
 8
CUBOID5
 10
10.9927
 20
24.422
 30
13.6257
 70
192
 0
VERTEX
 8
CUBOID5
 10
3.2816
 20
6.2559
 30
4.5409
 70
192
 0
VERTEX
 8
CUBOID5
 10
8.4855
 20
18.5154
 30
4.7155
 70
192
 0
VERTEX
 8
CUBOID5
 10
7.9124
 20
17.1654
 30
7.8607
 70
192
 0
VERTEX
 8
CUBOID5
 10
10.0031
 20
17.0746
 30
6.2881
 70
192
 0
VERTEX
 8
CUBOID5
 10
6.3947
 20
18.6062
 30
6.2881
 70
192
 0
VERTEX
 8
CUBOID5
 10
0
 20
0
 30
0
 70
128
 71
1
 72
9
 73
21
 74
12
 0
VERTEX
 8
CUBOID5
 10
0
 20
0
 30
0
 70
128
 71
2
 72
10
 73
21
 74
9
 0
VERTEX
 8
CUBOID5
 10
0
 20
0
 30
0
 70
128
 71
3
 72
11
 73
21
 74
10
 0
VERTEX
 8
CUBOID5
 10
0
 20
0
 30
0
 70
128
 71
4
 72
12
 73
21
 74
11
 0
VERTEX
 8
CUBOID5
 10
0
 20
0
 30
0
 70
128
 71
5
 72
16
 73
22
 74
13
 0
VERTEX
 8
CUBOID5
 10
0
 20
0
 30
0
 70
128
 71
8
 72
15
 73
22
 74
16
 0
VERTEX
 8
CUBOID5
 10
0
 20
0
 30
0
 70
128
 71
7
 72
14
 73
22
 74
15
 0
VERTEX
 8
CUBOID5
 10
0
 20
0
 30
0
 70
128
 71
6
 72
13
 73
22
 74
14
 0
VERTEX
 8
CUBOID5
 10
0
 20
0
 30
0
 70
128
 71
1
 72
17
 73
23
 74
9
 0
VERTEX
 8
CUBOID5
 10
0
 20
0
 30
0
 70
128
 71
5
 72
13
 73
23
 74
17
 0
VERTEX
 8
CUBOID5
 10
0
 20
0
 30
0
 70
128
 71
6
 72
18
 73
23
 74
13
 0
VERTEX
 8
CUBOID5
 10
0
 20
0
 30
0
 70
128
 71
2
 72
9
 73
23
 74
18
 0
VERTEX
 8
CUBOID5
 10
0
 20
0
 30
0
 70
128
 71
3
 72
19
 73
24
 74
11
 0
VERTEX
 8
CUBOID5
 10
0
 20
0
 30
0
 70
128
 71
7
 72
15
 73
24
 74
19
 0
VERTEX
 8
CUBOID5
 10
0
 20
0
 30
0
 70
128
 71
8
 72
20
 73
24
 74
15
 0
VERTEX
 8
CUBOID5
 10
0
 20
0
 30
0
 70
128
 71
4
 72
11
 73
24
 74
20
 0
VERTEX
 8
CUBOID5
 10
0
 20
0
 30
0
 70
128
 71
2
 72
18
 73
25
 74
10
 0
VERTEX
 8
CUBOID5
 10
0
 20
0
 30
0
 70
128
 71
6
 72
14
 73
25
 74
18
 0
VERTEX
 8
CUBOID5
 10
0
 20
0
 30
0
 70
128
 71
7
 72
19
 73
25
 74
14
 0
VERTEX
 8
CUBOID5
 10
0
 20
0
 30
0
 70
128
 71
3
 72
10
 73
25
 74
19
 0
VERTEX
 8
CUBOID5
 10
0
 20
0
 30
0
 70
128
 71
1
 72
12
 73
26
 74
17
 0
VERTEX
 8
CUBOID5
 10
0
 20
0
 30
0
 70
128
 71
4
 72
20
 73
26
 74
12
 0
VERTEX
 8
CUBOID5
 10
0
 20
0
 30
0
 70
128
 71
8
 72
16
 73
26
 74
20
 0
VERTEX
 8
CUBOID5
 10
0
 20
0
 30
0
 70
128
 71
5
 72
17
 73
26
 74
16
 0
SEQEND
 0
ENDSEC
 0
EOF
